ISO-10303-21;
HEADER;
FILE_DESCRIPTION (( 'STEP AP203' ),
    '1' );
FILE_NAME ('BK7-RNDF-50-0.5.STEP',
    '2020-12-22T01:28:56',
    ( '' ),
    ( '' ),
    'SwSTEP 2.0',
    'SolidWorks 2020',
    '' );
FILE_SCHEMA (( 'CONFIG_CONTROL_DESIGN' ));
ENDSEC;

DATA;
#1 = APPROVAL_DATE_TIME ( #99, #151 ) ;
#2 = PERSON_AND_ORGANIZATION ( #106, #118 ) ;
#3 = APPROVAL ( #147, 'UNSPECIFIED' ) ;
#4 = DIRECTION ( 'NONE',  ( -1.000000000000000000, -0.000000000000000000, -0.000000000000000000 ) ) ;
#5 = ORIENTED_EDGE ( 'NONE', *, *, #16, .F. ) ;
#6 = PLANE ( 'NONE',  #156 ) ;
#7 = LINE ( 'NONE', #22, #94 ) ;
#8 = CYLINDRICAL_SURFACE ( 'NONE', #140, 25.00000000000000000 ) ;
#9 =( NAMED_UNIT ( * ) SI_UNIT ( $, .STERADIAN. ) SOLID_ANGLE_UNIT ( ) );
#10 = APPROVAL_STATUS ( 'not_yet_approved' ) ;
#11 = CIRCLE ( 'NONE', #72, 25.00000000000000000 ) ;
#12 = APPLICATION_PROTOCOL_DEFINITION ( 'international standard', 'config_control_design', 1994, #88 ) ;
#13 = LOCAL_TIME ( 9, 28, 56.00000000000000000, #50 ) ;
#14 = CC_DESIGN_DATE_AND_TIME_ASSIGNMENT ( #29, #122, ( #131 ) ) ;
#15 = PERSON_AND_ORGANIZATION_ROLE ( 'creator' ) ;
#16 = EDGE_CURVE ( 'NONE', #114, #125, #148, .T. ) ;
#17 = ADVANCED_BREP_SHAPE_REPRESENTATION ( 'BK7-RNDF-50-0.5', ( #92, #53 ), #64 ) ;
#18 = DESIGN_CONTEXT ( 'detailed design', #88, 'design' ) ;
#19 = PERSON_AND_ORGANIZATION_ROLE ( 'design_supplier' ) ;
#20 = EDGE_CURVE ( 'NONE', #125, #119, #7, .T. ) ;
#21 = PRODUCT_RELATED_PRODUCT_CATEGORY ( 'detail', '', ( #164 ) ) ;
#22 = CARTESIAN_POINT ( 'NONE',  ( 0.000000000000000000, 3.061616997868383043E-15, -25.00000000000000000 ) ) ;
#23 = LOCAL_TIME ( 9, 28, 56.00000000000000000, #163 ) ;
#24 = DIRECTION ( 'NONE',  ( -1.000000000000000000, -0.000000000000000000, -0.000000000000000000 ) ) ;
#25 = FACE_OUTER_BOUND ( 'NONE', #89, .T. ) ;
#26 = CIRCLE ( 'NONE', #63, 25.00000000000000000 ) ;
#27 = MECHANICAL_CONTEXT ( 'NONE', #120, 'mechanical' ) ;
#28 = DIRECTION ( 'NONE',  ( 0.000000000000000000, 0.000000000000000000, 1.000000000000000000 ) ) ;
#29 = DATE_AND_TIME ( #90, #60 ) ;
#30 = CARTESIAN_POINT ( 'NONE',  ( 0.000000000000000000, 0.000000000000000000, 0.000000000000000000 ) ) ;
#31 = CALENDAR_DATE ( 2020, 22, 12 ) ;
#32 = APPROVAL_DATE_TIME ( #70, #3 ) ;
#33 = CC_DESIGN_APPROVAL ( #3, ( #105 ) ) ;
#34 = EDGE_CURVE ( 'NONE', #168, #119, #26, .T. ) ;
#35 = CARTESIAN_POINT ( 'NONE',  ( -2.694222958124177204E-15, 0.000000000000000000, 0.000000000000000000 ) ) ;
#36 = EDGE_CURVE ( 'NONE', #119, #168, #11, .T. ) ;
#37 = ORIENTED_EDGE ( 'NONE', *, *, #144, .F. ) ;
#38 = CC_DESIGN_DATE_AND_TIME_ASSIGNMENT ( #69, #43, ( #105 ) ) ;
#39 = DIRECTION ( 'NONE',  ( -1.000000000000000000, -0.000000000000000000, -0.000000000000000000 ) ) ;
#40 = DATE_AND_TIME ( #169, #13 ) ;
#41 = CARTESIAN_POINT ( 'NONE',  ( 1.999999999999998224, 25.00000000000000000, 0.000000000000000000 ) ) ;
#42 = CC_DESIGN_APPROVAL ( #175, ( #131 ) ) ;
#43 = DATE_TIME_ROLE ( 'classification_date' ) ;
#44 = ADVANCED_FACE ( 'NONE', ( #55 ), #6, .F. ) ;
#45 = SHAPE_DEFINITION_REPRESENTATION ( #112, #17 ) ;
#46 = CARTESIAN_POINT ( 'NONE',  ( 0.000000000000000000, 0.000000000000000000, 0.000000000000000000 ) ) ;
#47 = CIRCLE ( 'NONE', #170, 25.00000000000000000 ) ;
#48 = CARTESIAN_POINT ( 'NONE',  ( 1.999999999999997113, 3.061616997868383043E-15, -25.00000000000000000 ) ) ;
#49 = CYLINDRICAL_SURFACE ( 'NONE', #67, 25.00000000000000000 ) ;
#50 = COORDINATED_UNIVERSAL_TIME_OFFSET ( 8, 0, .AHEAD. ) ;
#51 = APPROVAL_PERSON_ORGANIZATION ( #68, #3, #52 ) ;
#52 = APPROVAL_ROLE ( '' ) ;
#53 = AXIS2_PLACEMENT_3D ( 'NONE', #30, #79, #132 ) ;
#54 = CALENDAR_DATE ( 2020, 22, 12 ) ;
#55 = FACE_OUTER_BOUND ( 'NONE', #87, .T. ) ;
#56 = ORIENTED_EDGE ( 'NONE', *, *, #34, .F. ) ;
#57 = CARTESIAN_POINT ( 'NONE',  ( 1.999999999999997113, 0.000000000000000000, 0.000000000000000000 ) ) ;
#58 = DIRECTION ( 'NONE',  ( -1.000000000000000000, -0.000000000000000000, -0.000000000000000000 ) ) ;
#59 = DIRECTION ( 'NONE',  ( 0.000000000000000000, 0.000000000000000000, 1.000000000000000000 ) ) ;
#60 = LOCAL_TIME ( 9, 28, 56.00000000000000000, #153 ) ;
#61 = EDGE_CURVE ( 'NONE', #125, #114, #47, .T. ) ;
#62 = APPROVAL_ROLE ( '' ) ;
#63 = AXIS2_PLACEMENT_3D ( 'NONE', #35, #58, #76 ) ;
#64 =( GEOMETRIC_REPRESENTATION_CONTEXT ( 3 ) GLOBAL_UNCERTAINTY_ASSIGNED_CONTEXT ( ( #172 ) ) GLOBAL_UNIT_ASSIGNED_CONTEXT ( ( #93, #143, #9 ) ) REPRESENTATION_CONTEXT ( 'NONE', 'WORKASPACE' ) );
#65 = APPROVAL_STATUS ( 'not_yet_approved' ) ;
#66 = CARTESIAN_POINT ( 'NONE',  ( -2.694222958124177204E-15, 3.061616997868383043E-15, -25.00000000000000000 ) ) ;
#67 = AXIS2_PLACEMENT_3D ( 'NONE', #96, #39, #28 ) ;
#68 = PERSON_AND_ORGANIZATION ( #106, #118 ) ;
#69 = DATE_AND_TIME ( #54, #82 ) ;
#70 = DATE_AND_TIME ( #31, #23 ) ;
#71 = DIRECTION ( 'NONE',  ( -1.000000000000000000, -0.000000000000000000, -0.000000000000000000 ) ) ;
#72 = AXIS2_PLACEMENT_3D ( 'NONE', #139, #4, #115 ) ;
#73 = ORIENTED_EDGE ( 'NONE', *, *, #16, .T. ) ;
#74 = ADVANCED_FACE ( 'NONE', ( #25 ), #8, .T. ) ;
#75 = ORIENTED_EDGE ( 'NONE', *, *, #36, .T. ) ;
#76 = DIRECTION ( 'NONE',  ( 0.000000000000000000, 0.000000000000000000, 1.000000000000000000 ) ) ;
#77 = PERSON_AND_ORGANIZATION ( #106, #118 ) ;
#78 = CARTESIAN_POINT ( 'NONE',  ( 0.000000000000000000, 0.000000000000000000, 25.00000000000000000 ) ) ;
#79 = DIRECTION ( 'NONE',  ( 0.000000000000000000, 0.000000000000000000, 1.000000000000000000 ) ) ;
#80 = PERSON_AND_ORGANIZATION_ROLE ( 'design_owner' ) ;
#81 = CC_DESIGN_PERSON_AND_ORGANIZATION_ASSIGNMENT ( #2, #110, ( #105 ) ) ;
#82 = LOCAL_TIME ( 9, 28, 56.00000000000000000, #111 ) ;
#83 = EDGE_LOOP ( 'NONE', ( #5, #136 ) ) ;
#84 = DIRECTION ( 'NONE',  ( -1.000000000000000000, -0.000000000000000000, -0.000000000000000000 ) ) ;
#85 = ORIENTED_EDGE ( 'NONE', *, *, #34, .T. ) ;
#86 = LOCAL_TIME ( 9, 28, 56.00000000000000000, #150 ) ;
#87 = EDGE_LOOP ( 'NONE', ( #85, #75 ) ) ;
#88 = APPLICATION_CONTEXT ( 'configuration controlled 3d designs of mechanical parts and assemblies' ) ;
#89 = EDGE_LOOP ( 'NONE', ( #73, #102, #56, #37 ) ) ;
#90 = CALENDAR_DATE ( 2020, 22, 12 ) ;
#91 = PERSON_AND_ORGANIZATION ( #106, #118 ) ;
#92 = MANIFOLD_SOLID_BREP ( 'Ðý×', #134 ) ;
#93 =( LENGTH_UNIT ( ) NAMED_UNIT ( * ) SI_UNIT ( .MILLI., .METRE. ) );
#94 = VECTOR ( 'NONE', #71, 1000.000000000000000 ) ;
#95 = CC_DESIGN_PERSON_AND_ORGANIZATION_ASSIGNMENT ( #123, #19, ( #162 ) ) ;
#96 = CARTESIAN_POINT ( 'NONE',  ( 0.000000000000000000, 0.000000000000000000, 0.000000000000000000 ) ) ;
#97 = SECURITY_CLASSIFICATION_LEVEL ( 'unclassified' ) ;
#98 = ADVANCED_FACE ( 'NONE', ( #135 ), #49, .T. ) ;
#99 = DATE_AND_TIME ( #160, #86 ) ;
#100 = PERSON_AND_ORGANIZATION_ROLE ( 'creator' ) ;
#101 = ORIENTED_EDGE ( 'NONE', *, *, #61, .T. ) ;
#102 = ORIENTED_EDGE ( 'NONE', *, *, #20, .T. ) ;
#103 = DIRECTION ( 'NONE',  ( 0.000000000000000000, 0.000000000000000000, -1.000000000000000000 ) ) ;
#104 = LINE ( 'NONE', #78, #121 ) ;
#105 = SECURITY_CLASSIFICATION ( '', '', #97 ) ;
#106 = PERSON ( 'UNSPECIFIED', 'UNSPECIFIED', 'UNSPECIFIED', ('UNSPECIFIED'), ('UNSPECIFIED'), ('UNSPECIFIED') ) ;
#107 = PLANE ( 'NONE',  #130 ) ;
#108 = ADVANCED_FACE ( 'NONE', ( #133 ), #107, .F. ) ;
#109 = DIRECTION ( 'NONE',  ( -0.000000000000000000, 0.000000000000000000, 1.000000000000000000 ) ) ;
#110 = PERSON_AND_ORGANIZATION_ROLE ( 'classification_officer' ) ;
#111 = COORDINATED_UNIVERSAL_TIME_OFFSET ( 8, 0, .AHEAD. ) ;
#112 = PRODUCT_DEFINITION_SHAPE ( 'NONE', 'NONE',  #131 ) ;
#113 = AXIS2_PLACEMENT_3D ( 'NONE', #57, #24, #129 ) ;
#114 = VERTEX_POINT ( 'NONE', #155 ) ;
#115 = DIRECTION ( 'NONE',  ( 0.000000000000000000, 0.000000000000000000, 1.000000000000000000 ) ) ;
#116 = CARTESIAN_POINT ( 'NONE',  ( -1.347111479062088602E-15, 25.00000000000000000, 0.000000000000000000 ) ) ;
#117 = DIRECTION ( 'NONE',  ( 0.000000000000000000, 0.000000000000000000, 1.000000000000000000 ) ) ;
#118 = ORGANIZATION ( 'UNSPECIFIED', 'UNSPECIFIED', '' ) ;
#119 = VERTEX_POINT ( 'NONE', #66 ) ;
#120 = APPLICATION_CONTEXT ( 'configuration controlled 3d designs of mechanical parts and assemblies' ) ;
#121 = VECTOR ( 'NONE', #173, 1000.000000000000000 ) ;
#122 = DATE_TIME_ROLE ( 'creation_date' ) ;
#123 = PERSON_AND_ORGANIZATION ( #106, #118 ) ;
#124 = CC_DESIGN_PERSON_AND_ORGANIZATION_ASSIGNMENT ( #159, #100, ( #162 ) ) ;
#125 = VERTEX_POINT ( 'NONE', #48 ) ;
#126 = ORIENTED_EDGE ( 'NONE', *, *, #144, .T. ) ;
#127 = CC_DESIGN_SECURITY_CLASSIFICATION ( #105, ( #162 ) ) ;
#128 = ORIENTED_EDGE ( 'NONE', *, *, #36, .F. ) ;
#129 = DIRECTION ( 'NONE',  ( 0.000000000000000000, 0.000000000000000000, 1.000000000000000000 ) ) ;
#130 = AXIS2_PLACEMENT_3D ( 'NONE', #41, #171, #109 ) ;
#131 = PRODUCT_DEFINITION ( 'UNKNOWN', '', #162, #18 ) ;
#132 = DIRECTION ( 'NONE',  ( 1.000000000000000000, 0.000000000000000000, 0.000000000000000000 ) ) ;
#133 = FACE_OUTER_BOUND ( 'NONE', #83, .T. ) ;
#134 = CLOSED_SHELL ( 'NONE', ( #74, #98, #108, #44 ) ) ;
#135 = FACE_OUTER_BOUND ( 'NONE', #152, .T. ) ;
#136 = ORIENTED_EDGE ( 'NONE', *, *, #61, .F. ) ;
#137 = ORIENTED_EDGE ( 'NONE', *, *, #20, .F. ) ;
#138 = CC_DESIGN_PERSON_AND_ORGANIZATION_ASSIGNMENT ( #142, #15, ( #131 ) ) ;
#139 = CARTESIAN_POINT ( 'NONE',  ( -2.694222958124177204E-15, 0.000000000000000000, 0.000000000000000000 ) ) ;
#140 = AXIS2_PLACEMENT_3D ( 'NONE', #46, #84, #59 ) ;
#141 = CARTESIAN_POINT ( 'NONE',  ( -2.694222958124177204E-15, 0.000000000000000000, 25.00000000000000000 ) ) ;
#142 = PERSON_AND_ORGANIZATION ( #106, #118 ) ;
#143 =( NAMED_UNIT ( * ) PLANE_ANGLE_UNIT ( ) SI_UNIT ( $, .RADIAN. ) );
#144 = EDGE_CURVE ( 'NONE', #114, #168, #104, .T. ) ;
#145 = PERSON_AND_ORGANIZATION ( #106, #118 ) ;
#146 = CC_DESIGN_APPROVAL ( #151, ( #162 ) ) ;
#147 = APPROVAL_STATUS ( 'not_yet_approved' ) ;
#148 = CIRCLE ( 'NONE', #113, 25.00000000000000000 ) ;
#149 = APPROVAL_PERSON_ORGANIZATION ( #77, #151, #62 ) ;
#150 = COORDINATED_UNIVERSAL_TIME_OFFSET ( 8, 0, .AHEAD. ) ;
#151 = APPROVAL ( #10, 'UNSPECIFIED' ) ;
#152 = EDGE_LOOP ( 'NONE', ( #137, #101, #126, #128 ) ) ;
#153 = COORDINATED_UNIVERSAL_TIME_OFFSET ( 8, 0, .AHEAD. ) ;
#154 = APPLICATION_PROTOCOL_DEFINITION ( 'international standard', 'config_control_design', 1994, #120 ) ;
#155 = CARTESIAN_POINT ( 'NONE',  ( 1.999999999999997113, 0.000000000000000000, 25.00000000000000000 ) ) ;
#156 = AXIS2_PLACEMENT_3D ( 'NONE', #116, #165, #103 ) ;
#157 = APPROVAL_DATE_TIME ( #40, #175 ) ;
#158 = CC_DESIGN_PERSON_AND_ORGANIZATION_ASSIGNMENT ( #145, #80, ( #164 ) ) ;
#159 = PERSON_AND_ORGANIZATION ( #106, #118 ) ;
#160 = CALENDAR_DATE ( 2020, 22, 12 ) ;
#161 = APPROVAL_PERSON_ORGANIZATION ( #91, #175, #174 ) ;
#162 = PRODUCT_DEFINITION_FORMATION_WITH_SPECIFIED_SOURCE ( 'ANY', '', #164, .NOT_KNOWN. ) ;
#163 = COORDINATED_UNIVERSAL_TIME_OFFSET ( 8, 0, .AHEAD. ) ;
#164 = PRODUCT ( 'BK7-RNDF-50-0.5', 'BK7-RNDF-50-0.5', '', ( #27 ) ) ;
#165 = DIRECTION ( 'NONE',  ( 1.000000000000000000, 0.000000000000000000, 0.000000000000000000 ) ) ;
#166 = DIRECTION ( 'NONE',  ( -1.000000000000000000, -0.000000000000000000, -0.000000000000000000 ) ) ;
#167 = CARTESIAN_POINT ( 'NONE',  ( 1.999999999999997113, 0.000000000000000000, 0.000000000000000000 ) ) ;
#168 = VERTEX_POINT ( 'NONE', #141 ) ;
#169 = CALENDAR_DATE ( 2020, 22, 12 ) ;
#170 = AXIS2_PLACEMENT_3D ( 'NONE', #167, #166, #117 ) ;
#171 = DIRECTION ( 'NONE',  ( -1.000000000000000000, 0.000000000000000000, -0.000000000000000000 ) ) ;
#172 = UNCERTAINTY_MEASURE_WITH_UNIT (LENGTH_MEASURE( 1.000000000000000082E-05 ), #93, 'distance_accuracy_value', 'NONE');
#173 = DIRECTION ( 'NONE',  ( -1.000000000000000000, -0.000000000000000000, -0.000000000000000000 ) ) ;
#174 = APPROVAL_ROLE ( '' ) ;
#175 = APPROVAL ( #65, 'UNSPECIFIED' ) ;
ENDSEC;
END-ISO-10303-21;
